ISO-10303-21;
HEADER;
/* Generated by software containing ST-Developer
 * from STEP Tools, Inc. (www.steptools.com) 
 */
/* OPTION: using custom renumber hook */

FILE_DESCRIPTION(
/* description */ ('STEP AP242',
'CAx-IF Rec.Pracs.---Representation and Presentation of Product Manufa
cturing Information (PMI)---4.0---2014-10-13',
'CAx-IF Rec.Pracs.---3D Tessellated Geometry---0.4---2014-09-14','2;1'),

/* implementation_level */ '2;1');

FILE_NAME(
/* name */ '61d4fca0e7c37f72a7c0fd8e',
/* time_stamp */ '2022-01-05T02:04:16+00:00',
/* author */ (''),
/* organization */ (''),
/* preprocessor_version */ 'ST-DEVELOPER v18.101',
/* originating_system */ '  ',
/* authorisation */ '  ');

FILE_SCHEMA (('AP242_MANAGED_MODEL_BASED_3D_ENGINEERING_MIM_LF { 1 0 10303 442 1 1 4 }'));
ENDSEC;

DATA;
#10=SHAPE_REPRESENTATION_RELATIONSHIP('','',#155,#11);
#11=ADVANCED_BREP_SHAPE_REPRESENTATION('',(#153),#260);
#12=LINE('',#231,#24);
#13=LINE('',#234,#25);
#14=LINE('',#236,#26);
#15=LINE('',#238,#27);
#16=LINE('',#240,#28);
#17=LINE('',#242,#29);
#18=LINE('',#244,#30);
#19=LINE('',#246,#31);
#20=LINE('',#248,#32);
#21=LINE('',#250,#33);
#22=LINE('',#254,#34);
#23=LINE('',#255,#35);
#24=VECTOR('',#178,1.);
#25=VECTOR('',#179,1.);
#26=VECTOR('',#180,1.);
#27=VECTOR('',#181,1.);
#28=VECTOR('',#184,1.);
#29=VECTOR('',#185,1.);
#30=VECTOR('',#186,1.);
#31=VECTOR('',#189,1.);
#32=VECTOR('',#190,1.);
#33=VECTOR('',#191,1.);
#34=VECTOR('',#196,1.);
#35=VECTOR('',#197,1.);
#36=PLANE('',#160);
#37=PLANE('',#161);
#38=PLANE('',#162);
#39=PLANE('',#163);
#40=PLANE('',#165);
#41=PLANE('',#166);
#42=B_SPLINE_CURVE_WITH_KNOTS('',3,(#210,#211,#212,#213,#214,#215,#216,
#217,#218,#219,#220,#221,#222,#223,#224,#225,#226,#227,#228),
 .UNSPECIFIED.,.T.,.F.,(1,1,1,1,1,1,1,1,1,1,1,1,1,1,1,1,1,1,1,1,1,1,1),
(-0.00141870364933638,-0.000945802432890921,-0.000472901216445461,0.,0.000472901216445461,
0.000945802432890921,0.00141870364933638,0.00189160486578184,0.0023645060822273,
0.00283740729867276,0.00331030851511822,0.00378320973156368,0.00425611094800914,
0.00472901216445461,0.00520191338090007,0.00567481459734553,0.00614771581379099,
0.00662061703023645,0.00709351824668191,0.00756641946312737,0.00803932067957283,
0.00851222189601829,0.00898512311246375),.UNSPECIFIED.);
#43=ORIENTED_EDGE('',*,*,#75,.T.);
#44=ORIENTED_EDGE('',*,*,#76,.F.);
#45=ORIENTED_EDGE('',*,*,#77,.T.);
#46=ORIENTED_EDGE('',*,*,#76,.T.);
#47=ORIENTED_EDGE('',*,*,#78,.F.);
#48=ORIENTED_EDGE('',*,*,#79,.F.);
#49=ORIENTED_EDGE('',*,*,#80,.T.);
#50=ORIENTED_EDGE('',*,*,#81,.T.);
#51=ORIENTED_EDGE('',*,*,#82,.T.);
#52=ORIENTED_EDGE('',*,*,#83,.F.);
#53=ORIENTED_EDGE('',*,*,#84,.F.);
#54=ORIENTED_EDGE('',*,*,#79,.T.);
#55=ORIENTED_EDGE('',*,*,#75,.F.);
#56=ORIENTED_EDGE('',*,*,#85,.T.);
#57=ORIENTED_EDGE('',*,*,#86,.F.);
#58=ORIENTED_EDGE('',*,*,#87,.F.);
#59=ORIENTED_EDGE('',*,*,#83,.T.);
#60=ORIENTED_EDGE('',*,*,#88,.F.);
#61=ORIENTED_EDGE('',*,*,#89,.F.);
#62=ORIENTED_EDGE('',*,*,#81,.F.);
#63=ORIENTED_EDGE('',*,*,#90,.T.);
#64=ORIENTED_EDGE('',*,*,#86,.T.);
#65=ORIENTED_EDGE('',*,*,#80,.F.);
#66=ORIENTED_EDGE('',*,*,#84,.T.);
#67=ORIENTED_EDGE('',*,*,#87,.T.);
#68=ORIENTED_EDGE('',*,*,#90,.F.);
#69=ORIENTED_EDGE('',*,*,#78,.T.);
#70=ORIENTED_EDGE('',*,*,#89,.T.);
#71=ORIENTED_EDGE('',*,*,#85,.F.);
#72=ORIENTED_EDGE('',*,*,#82,.F.);
#73=ORIENTED_EDGE('',*,*,#77,.F.);
#74=ORIENTED_EDGE('',*,*,#88,.T.);
#75=EDGE_CURVE('',#91,#91,#103,.T.);
#76=EDGE_CURVE('',#92,#92,#104,.F.);
#77=EDGE_CURVE('',#93,#93,#42,.T.);
#78=EDGE_CURVE('',#94,#95,#12,.T.);
#79=EDGE_CURVE('',#96,#94,#13,.T.);
#80=EDGE_CURVE('',#96,#97,#14,.T.);
#81=EDGE_CURVE('',#97,#95,#15,.T.);
#82=EDGE_CURVE('',#94,#98,#16,.T.);
#83=EDGE_CURVE('',#99,#98,#17,.T.);
#84=EDGE_CURVE('',#96,#99,#18,.T.);
#85=EDGE_CURVE('',#98,#100,#19,.T.);
#86=EDGE_CURVE('',#101,#100,#20,.T.);
#87=EDGE_CURVE('',#99,#101,#21,.T.);
#88=EDGE_CURVE('',#102,#102,#105,.T.);
#89=EDGE_CURVE('',#95,#100,#22,.T.);
#90=EDGE_CURVE('',#97,#101,#23,.T.);
#91=VERTEX_POINT('',#207);
#92=VERTEX_POINT('',#209);
#93=VERTEX_POINT('',#229);
#94=VERTEX_POINT('',#232);
#95=VERTEX_POINT('',#233);
#96=VERTEX_POINT('',#235);
#97=VERTEX_POINT('',#237);
#98=VERTEX_POINT('',#241);
#99=VERTEX_POINT('',#243);
#100=VERTEX_POINT('',#247);
#101=VERTEX_POINT('',#249);
#102=VERTEX_POINT('',#253);
#103=CIRCLE('',#158,0.00135255);
#104=CIRCLE('',#159,0.00135255);
#105=CIRCLE('',#164,0.0011303);
#106=EDGE_LOOP('',(#43));
#107=EDGE_LOOP('',(#44));
#108=EDGE_LOOP('',(#45));
#109=EDGE_LOOP('',(#46));
#110=EDGE_LOOP('',(#47,#48,#49,#50));
#111=EDGE_LOOP('',(#51,#52,#53,#54));
#112=EDGE_LOOP('',(#55));
#113=EDGE_LOOP('',(#56,#57,#58,#59));
#114=EDGE_LOOP('',(#60));
#115=EDGE_LOOP('',(#61,#62,#63,#64));
#116=EDGE_LOOP('',(#65,#66,#67,#68));
#117=EDGE_LOOP('',(#69,#70,#71,#72));
#118=EDGE_LOOP('',(#73));
#119=EDGE_LOOP('',(#74));
#120=FACE_BOUND('',#106,.T.);
#121=FACE_BOUND('',#107,.T.);
#122=FACE_BOUND('',#108,.T.);
#123=FACE_BOUND('',#109,.T.);
#124=FACE_BOUND('',#110,.T.);
#125=FACE_BOUND('',#111,.T.);
#126=FACE_BOUND('',#112,.T.);
#127=FACE_BOUND('',#113,.T.);
#128=FACE_BOUND('',#114,.T.);
#129=FACE_BOUND('',#115,.T.);
#130=FACE_BOUND('',#116,.T.);
#131=FACE_BOUND('',#117,.T.);
#132=FACE_BOUND('',#118,.T.);
#133=FACE_BOUND('',#119,.T.);
#134=CYLINDRICAL_SURFACE('',#157,0.00135255);
#135=CYLINDRICAL_SURFACE('',#167,0.0011303);
#136=ADVANCED_FACE('',(#120,#121,#122),#134,.F.);
#137=ADVANCED_FACE('',(#123,#124),#36,.T.);
#138=ADVANCED_FACE('',(#125),#37,.F.);
#139=ADVANCED_FACE('',(#126,#127),#38,.F.);
#140=ADVANCED_FACE('',(#128,#129),#39,.T.);
#141=ADVANCED_FACE('',(#130),#40,.T.);
#142=ADVANCED_FACE('',(#131),#41,.F.);
#143=ADVANCED_FACE('',(#132,#133),#135,.F.);
#144=CLOSED_SHELL('',(#136,#137,#138,#139,#140,#141,#142,#143));
#145=STYLED_ITEM('',(#146),#153);
#146=PRESENTATION_STYLE_ASSIGNMENT((#147));
#147=SURFACE_STYLE_USAGE(.BOTH.,#148);
#148=SURFACE_SIDE_STYLE('',(#149));
#149=SURFACE_STYLE_FILL_AREA(#150);
#150=FILL_AREA_STYLE('',(#151));
#151=FILL_AREA_STYLE_COLOUR('',#152);
#152=COLOUR_RGB('',0.603921568627451,0.647058823529412,0.686274509803922);
#153=MANIFOLD_SOLID_BREP('Part 1',#144);
#154=SHAPE_DEFINITION_REPRESENTATION(#265,#155);
#155=SHAPE_REPRESENTATION('Part 1',(#156),#260);
#156=AXIS2_PLACEMENT_3D('',#204,#168,#169);
#157=AXIS2_PLACEMENT_3D('',#205,#170,#171);
#158=AXIS2_PLACEMENT_3D('',#206,#172,#173);
#159=AXIS2_PLACEMENT_3D('',#208,#174,#175);
#160=AXIS2_PLACEMENT_3D('',#230,#176,#177);
#161=AXIS2_PLACEMENT_3D('',#239,#182,#183);
#162=AXIS2_PLACEMENT_3D('',#245,#187,#188);
#163=AXIS2_PLACEMENT_3D('',#251,#192,#193);
#164=AXIS2_PLACEMENT_3D('',#252,#194,#195);
#165=AXIS2_PLACEMENT_3D('',#256,#198,#199);
#166=AXIS2_PLACEMENT_3D('',#257,#200,#201);
#167=AXIS2_PLACEMENT_3D('',#258,#202,#203);
#168=DIRECTION('',(0.,0.,1.));
#169=DIRECTION('',(1.,0.,0.));
#170=DIRECTION('',(0.,-1.,0.));
#171=DIRECTION('',(0.,0.,-1.));
#172=DIRECTION('',(0.,-1.,0.));
#173=DIRECTION('',(0.,0.,-1.));
#174=DIRECTION('',(0.,1.,0.));
#175=DIRECTION('',(0.,0.,1.));
#176=DIRECTION('',(0.,1.,0.));
#177=DIRECTION('',(0.,0.,1.));
#178=DIRECTION('',(1.,0.,0.));
#179=DIRECTION('',(0.,0.,-1.));
#180=DIRECTION('',(1.,0.,0.));
#181=DIRECTION('',(0.,0.,-1.));
#182=DIRECTION('',(1.,0.,0.));
#183=DIRECTION('',(0.,0.,-1.));
#184=DIRECTION('',(0.,-1.,0.));
#185=DIRECTION('',(0.,0.,-1.));
#186=DIRECTION('',(0.,-1.,0.));
#187=DIRECTION('',(0.,1.,0.));
#188=DIRECTION('',(0.,0.,1.));
#189=DIRECTION('',(1.,0.,0.));
#190=DIRECTION('',(0.,0.,-1.));
#191=DIRECTION('',(1.,0.,0.));
#192=DIRECTION('',(1.,0.,0.));
#193=DIRECTION('',(0.,0.,-1.));
#194=DIRECTION('',(1.,0.,0.));
#195=DIRECTION('',(0.,0.,-1.));
#196=DIRECTION('',(0.,-1.,0.));
#197=DIRECTION('',(0.,-1.,0.));
#198=DIRECTION('',(0.,0.,1.));
#199=DIRECTION('',(1.,0.,0.));
#200=DIRECTION('',(0.,0.,1.));
#201=DIRECTION('',(1.,0.,0.));
#202=DIRECTION('',(1.,0.,0.));
#203=DIRECTION('',(0.,0.,-1.));
#204=CARTESIAN_POINT('',(0.,0.,0.));
#205=CARTESIAN_POINT('',(0.0036195,0.00905353759822976,0.003937));
#206=CARTESIAN_POINT('',(0.0036195,-0.0109601,0.003937));
#207=CARTESIAN_POINT('',(0.0036195,-0.0109601,0.00258445));
#208=CARTESIAN_POINT('',(0.0036195,0.,0.003937));
#209=CARTESIAN_POINT('',(0.0036195,0.,0.00528955));
#210=CARTESIAN_POINT('',(0.0044731117436878,-0.00594519504831667,0.00287613832280389));
#211=CARTESIAN_POINT('',(0.00430716540463349,-0.00547950730597448,0.00277212238276705));
#212=CARTESIAN_POINT('',(0.004472275308143,-0.00501707572778542,0.0028755721461279));
#213=CARTESIAN_POINT('',(0.00470900554603777,-0.00467676287722965,0.00310740266991259));
#214=CARTESIAN_POINT('',(0.00491243092429667,-0.00441980279603521,0.00346299282910683));
#215=CARTESIAN_POINT('',(0.00500157211903711,-0.00431507696114839,0.00393534928115727));
#216=CARTESIAN_POINT('',(0.00491357515235821,-0.00441839587764684,0.0044082073210983));
#217=CARTESIAN_POINT('',(0.00470996852779375,-0.00467557246672756,0.00476552228935195));
#218=CARTESIAN_POINT('',(0.00447291875327243,-0.00501550326093488,0.00499796208989362));
#219=CARTESIAN_POINT('',(0.00430730300528025,-0.00547981642760468,0.0051017589113584));
#220=CARTESIAN_POINT('',(0.0044719188272589,-0.00594264978080519,0.00499880165262367));
#221=CARTESIAN_POINT('',(0.0047093144145288,-0.00628369736735933,0.00476603505780372));
#222=CARTESIAN_POINT('',(0.00491147869735175,-0.00653913015571381,0.00441298058713314));
#223=CARTESIAN_POINT('',(0.00500172705986528,-0.00664521285955755,0.00394067599571206));
#224=CARTESIAN_POINT('',(0.00491388800161901,-0.00654208841663143,0.00346648381268748));
#225=CARTESIAN_POINT('',(0.00471050268985356,-0.00628518815582352,0.00310916765963619));
#226=CARTESIAN_POINT('',(0.0044731117436878,-0.00594519504831667,0.00287613832280389));
#227=CARTESIAN_POINT('',(0.00430716540463349,-0.00547950730597448,0.00277212238276705));
#228=CARTESIAN_POINT('',(0.004472275308143,-0.00501707572778542,0.0028755721461279));
#229=CARTESIAN_POINT('',(0.00436234144506079,-0.00548005,0.0028067));
#230=CARTESIAN_POINT('',(0.007112,0.,0.007874));
#231=CARTESIAN_POINT('',(0.007112,0.,0.));
#232=CARTESIAN_POINT('',(0.,0.,0.));
#233=CARTESIAN_POINT('',(0.014224,0.,0.));
#234=CARTESIAN_POINT('',(0.,0.,0.007874));
#235=CARTESIAN_POINT('',(0.,0.,0.007874));
#236=CARTESIAN_POINT('',(0.007112,0.,0.007874));
#237=CARTESIAN_POINT('',(0.014224,0.,0.007874));
#238=CARTESIAN_POINT('',(0.014224,0.,0.007874));
#239=CARTESIAN_POINT('',(0.,-0.00548005,0.007874));
#240=CARTESIAN_POINT('',(0.,-0.00548005,0.));
#241=CARTESIAN_POINT('',(8.67361737988404E-19,-0.0109601,0.));
#242=CARTESIAN_POINT('',(8.67361737988404E-19,-0.0109601,0.007874));
#243=CARTESIAN_POINT('',(8.67361737988404E-19,-0.0109601,0.007874));
#244=CARTESIAN_POINT('',(0.,-0.00548005,0.007874));
#245=CARTESIAN_POINT('',(0.007112,-0.0109601,0.007874));
#246=CARTESIAN_POINT('',(0.007112,-0.0109601,0.));
#247=CARTESIAN_POINT('',(0.014224,-0.0109601,0.));
#248=CARTESIAN_POINT('',(0.014224,-0.0109601,0.007874));
#249=CARTESIAN_POINT('',(0.014224,-0.0109601,0.007874));
#250=CARTESIAN_POINT('',(0.007112,-0.0109601,0.007874));
#251=CARTESIAN_POINT('',(0.014224,-0.00548005,0.007874));
#252=CARTESIAN_POINT('',(0.014224,-0.00548005,0.003937));
#253=CARTESIAN_POINT('',(0.014224,-0.00548005,0.0028067));
#254=CARTESIAN_POINT('',(0.014224,-0.00548005,0.));
#255=CARTESIAN_POINT('',(0.014224,-0.00548005,0.007874));
#256=CARTESIAN_POINT('',(0.007112,-0.00548005,0.007874));
#257=CARTESIAN_POINT('',(0.007112,-0.00548005,0.));
#258=CARTESIAN_POINT('',(0.00893142362115658,-0.00548005,0.003937));
#259=MECHANICAL_DESIGN_GEOMETRIC_PRESENTATION_REPRESENTATION('',(#145),
#260);
#260=(
GEOMETRIC_REPRESENTATION_CONTEXT(3)
GLOBAL_UNCERTAINTY_ASSIGNED_CONTEXT((#261))
GLOBAL_UNIT_ASSIGNED_CONTEXT((#264,#263,#262))
REPRESENTATION_CONTEXT('Part 1','TOP_LEVEL_ASSEMBLY_PART')
);
#261=UNCERTAINTY_MEASURE_WITH_UNIT(LENGTH_MEASURE(5.E-6),#264,
'DISTANCE_ACCURACY_VALUE','Maximum Tolerance applied to model');
#262=(
NAMED_UNIT(*)
SI_UNIT($,.STERADIAN.)
SOLID_ANGLE_UNIT()
);
#263=(
NAMED_UNIT(*)
PLANE_ANGLE_UNIT()
SI_UNIT($,.RADIAN.)
);
#264=(
LENGTH_UNIT()
NAMED_UNIT(*)
SI_UNIT($,.METRE.)
);
#265=PRODUCT_DEFINITION_SHAPE('','',#266);
#266=PRODUCT_DEFINITION('','',#268,#267);
#267=PRODUCT_DEFINITION_CONTEXT('',#274,'design');
#268=PRODUCT_DEFINITION_FORMATION_WITH_SPECIFIED_SOURCE('','',#270,
 .NOT_KNOWN.);
#269=PRODUCT_RELATED_PRODUCT_CATEGORY('','',(#270));
#270=PRODUCT('Part 1','Part 1','Part 1',(#272));
#271=PRODUCT_CATEGORY('','');
#272=PRODUCT_CONTEXT('',#274,'mechanical');
#273=APPLICATION_PROTOCOL_DEFINITION('international standard',
'ap242_managed_model_based_3d_engineering',2011,#274);
#274=APPLICATION_CONTEXT('managed model based 3d engineering');
ENDSEC;
END-ISO-10303-21;
